ISO-10303-21;
HEADER;
FILE_DESCRIPTION (( 'STEP AP203' ),
    '1' );
FILE_NAME ('Q-AZHWP-12.7-405-M.STEP',
    '2020-12-22T09:07:04',
    ( '' ),
    ( '' ),
    'SwSTEP 2.0',
    'SolidWorks 2020',
    '' );
FILE_SCHEMA (( 'CONFIG_CONTROL_DESIGN' ));
ENDSEC;

DATA;
#1 = CC_DESIGN_DATE_AND_TIME_ASSIGNMENT ( #71, #318, ( #238 ) ) ;
#2 = VERTEX_POINT ( 'NONE', #11 ) ;
#3 = ADVANCED_FACE ( 'NONE', ( #16 ), #137, .F. ) ;
#4 = DATE_AND_TIME ( #211, #9 ) ;
#5 = LINE ( 'NONE', #154, #322 ) ;
#6 = DATE_AND_TIME ( #14, #259 ) ;
#7 = PERSON_AND_ORGANIZATION_ROLE ( 'design_owner' ) ;
#8 = DIRECTION ( 'NONE',  ( 0.000000000000000000, 0.000000000000000000, 1.000000000000000000 ) ) ;
#9 = LOCAL_TIME ( 17, 7, 4.000000000000000000, #90 ) ;
#10 = DIRECTION ( 'NONE',  ( -1.000000000000000000, -0.000000000000000000, -0.000000000000000000 ) ) ;
#11 = CARTESIAN_POINT ( 'NONE',  ( -3.000000000000000000, 0.000000000000000000, 12.69999999999999929 ) ) ;
#12 = PERSON_AND_ORGANIZATION ( #199, #264 ) ;
#13 = CARTESIAN_POINT ( 'NONE',  ( -1.500000000000000444, 0.000000000000000000, 6.349999999999999645 ) ) ;
#14 = CALENDAR_DATE ( 2020, 22, 12 ) ;
#15 = LOCAL_TIME ( 17, 7, 4.000000000000000000, #107 ) ;
#16 = FACE_OUTER_BOUND ( 'NONE', #326, .T. ) ;
#17 = DIRECTION ( 'NONE',  ( -1.000000000000000000, -0.000000000000000000, -0.000000000000000000 ) ) ;
#18 = FACE_OUTER_BOUND ( 'NONE', #195, .T. ) ;
#19 = CC_DESIGN_PERSON_AND_ORGANIZATION_ASSIGNMENT ( #297, #188, ( #205 ) ) ;
#20 = FACE_OUTER_BOUND ( 'NONE', #320, .T. ) ;
#21 = DIRECTION ( 'NONE',  ( -1.000000000000000000, 0.000000000000000000, -0.000000000000000000 ) ) ;
#22 = ORIENTED_EDGE ( 'NONE', *, *, #40, .T. ) ;
#23 = CARTESIAN_POINT ( 'NONE',  ( -2.999999999999999556, 7.776507174585692163E-16, -6.349999999999999645 ) ) ;
#24 = ORIENTED_EDGE ( 'NONE', *, *, #189, .T. ) ;
#25 = SECURITY_CLASSIFICATION ( '', '', #136 ) ;
#26 = LINE ( 'NONE', #233, #134 ) ;
#27 = AXIS2_PLACEMENT_3D ( 'NONE', #230, #56, #262 ) ;
#28 = AXIS2_PLACEMENT_3D ( 'NONE', #300, #66, #162 ) ;
#29 = CARTESIAN_POINT ( 'NONE',  ( -3.000000000000000000, 0.000000000000000000, 0.000000000000000000 ) ) ;
#30 = PERSON_AND_ORGANIZATION_ROLE ( 'creator' ) ;
#31 = APPLICATION_CONTEXT ( 'configuration controlled 3d designs of mechanical parts and assemblies' ) ;
#32 = APPROVAL_DATE_TIME ( #161, #55 ) ;
#33 = EDGE_CURVE ( 'NONE', #37, #118, #296, .T. ) ;
#34 = CARTESIAN_POINT ( 'NONE',  ( -1.614212418857619014, 7.776507174585692163E-16, -6.349999999999999645 ) ) ;
#35 = AXIS2_PLACEMENT_3D ( 'NONE', #229, #147, #124 ) ;
#36 = CARTESIAN_POINT ( 'NONE',  ( 3.000000000000000000, 0.000000000000000000, 0.000000000000000000 ) ) ;
#37 = VERTEX_POINT ( 'NONE', #13 ) ;
#38 = SHAPE_DEFINITION_REPRESENTATION ( #140, #305 ) ;
#39 = DIRECTION ( 'NONE',  ( -1.000000000000000000, -0.000000000000000000, -0.000000000000000000 ) ) ;
#40 = EDGE_CURVE ( 'NONE', #37, #207, #59, .T. ) ;
#41 = CC_DESIGN_APPROVAL ( #55, ( #205 ) ) ;
#42 = ORIENTED_EDGE ( 'NONE', *, *, #256, .F. ) ;
#43 = CARTESIAN_POINT ( 'NONE',  ( 3.000000000000000888, 7.776507174585692163E-16, -6.349999999999999645 ) ) ;
#44 = FACE_OUTER_BOUND ( 'NONE', #63, .T. ) ;
#45 = CC_DESIGN_PERSON_AND_ORGANIZATION_ASSIGNMENT ( #266, #30, ( #238 ) ) ;
#46 = DIRECTION ( 'NONE',  ( -1.000000000000000000, -0.000000000000000000, -0.000000000000000000 ) ) ;
#47 = DIRECTION ( 'NONE',  ( 0.000000000000000000, 0.000000000000000000, 1.000000000000000000 ) ) ;
#48 = AXIS2_PLACEMENT_3D ( 'NONE', #196, #146, #123 ) ;
#49 = ADVANCED_FACE ( 'NONE', ( #185 ), #191, .T. ) ;
#50 = ORIENTED_EDGE ( 'NONE', *, *, #311, .F. ) ;
#51 = ORIENTED_EDGE ( 'NONE', *, *, #106, .T. ) ;
#52 = EDGE_CURVE ( 'NONE', #220, #118, #292, .T. ) ;
#53 = CIRCLE ( 'NONE', #247, 6.349999999999999645 ) ;
#54 = CARTESIAN_POINT ( 'NONE',  ( -3.000000000000000000, 1.555301434917138433E-15, -12.69999999999999929 ) ) ;
#55 = APPROVAL ( #295, 'UNSPECIFIED' ) ;
#56 = DIRECTION ( 'NONE',  ( 1.000000000000000000, 0.000000000000000000, 0.000000000000000000 ) ) ;
#57 = DIRECTION ( 'NONE',  ( -1.000000000000000000, -0.000000000000000000, -0.000000000000000000 ) ) ;
#58 = APPROVAL_DATE_TIME ( #6, #325 ) ;
#59 = CIRCLE ( 'NONE', #263, 6.349999999999999645 ) ;
#60 = AXIS2_PLACEMENT_3D ( 'NONE', #76, #284, #203 ) ;
#61 = APPROVAL ( #265, 'UNSPECIFIED' ) ;
#62 = CALENDAR_DATE ( 2020, 22, 12 ) ;
#63 = EDGE_LOOP ( 'NONE', ( #283, #153, #73, #213 ) ) ;
#64 = PERSON_AND_ORGANIZATION ( #199, #264 ) ;
#65 = EDGE_CURVE ( 'NONE', #207, #220, #243, .T. ) ;
#66 = DIRECTION ( 'NONE',  ( -1.000000000000000000, -0.000000000000000000, -0.000000000000000000 ) ) ;
#67 = PERSON_AND_ORGANIZATION ( #199, #264 ) ;
#68 = VECTOR ( 'NONE', #10, 1000.000000000000000 ) ;
#69 = UNCERTAINTY_MEASURE_WITH_UNIT (LENGTH_MEASURE( 1.000000000000000082E-05 ), #176, 'distance_accuracy_value', 'NONE');
#70 = EDGE_LOOP ( 'NONE', ( #319, #260, #91, #285 ) ) ;
#71 = DATE_AND_TIME ( #62, #15 ) ;
#72 = CARTESIAN_POINT ( 'NONE',  ( 1.500000000000000888, 0.000000000000000000, 0.000000000000000000 ) ) ;
#73 = ORIENTED_EDGE ( 'NONE', *, *, #78, .T. ) ;
#74 = APPROVAL_PERSON_ORGANIZATION ( #64, #325, #116 ) ;
#75 = DIRECTION ( 'NONE',  ( 0.000000000000000000, 0.000000000000000000, 1.000000000000000000 ) ) ;
#76 = CARTESIAN_POINT ( 'NONE',  ( -1.614212418857619014, 0.000000000000000000, 0.000000000000000000 ) ) ;
#77 = CYLINDRICAL_SURFACE ( 'NONE', #192, 6.349999999999999645 ) ;
#78 = EDGE_CURVE ( 'NONE', #218, #139, #105, .T. ) ;
#79 = ORIENTED_EDGE ( 'NONE', *, *, #242, .T. ) ;
#80 = DIRECTION ( 'NONE',  ( -1.000000000000000000, -0.000000000000000000, -0.000000000000000000 ) ) ;
#81 =( GEOMETRIC_REPRESENTATION_CONTEXT ( 3 ) GLOBAL_UNCERTAINTY_ASSIGNED_CONTEXT ( ( #69 ) ) GLOBAL_UNIT_ASSIGNED_CONTEXT ( ( #176, #282, #254 ) ) REPRESENTATION_CONTEXT ( 'NONE', 'WORKASPACE' ) );
#82 = FACE_OUTER_BOUND ( 'NONE', #70, .T. ) ;
#83 = LINE ( 'NONE', #178, #286 ) ;
#84 = ORIENTED_EDGE ( 'NONE', *, *, #311, .T. ) ;
#85 = AXIS2_PLACEMENT_3D ( 'NONE', #200, #80, #250 ) ;
#86 = ORIENTED_EDGE ( 'NONE', *, *, #40, .F. ) ;
#87 = ORIENTED_EDGE ( 'NONE', *, *, #52, .F. ) ;
#88 = DIRECTION ( 'NONE',  ( 1.000000000000000000, 0.000000000000000000, 0.000000000000000000 ) ) ;
#89 = AXIS2_PLACEMENT_3D ( 'NONE', #280, #255, #47 ) ;
#90 = COORDINATED_UNIVERSAL_TIME_OFFSET ( 8, 0, .AHEAD. ) ;
#91 = ORIENTED_EDGE ( 'NONE', *, *, #33, .T. ) ;
#92 = EDGE_LOOP ( 'NONE', ( #79, #304 ) ) ;
#93 = CARTESIAN_POINT ( 'NONE',  ( -1.614212418857619014, 0.000000000000000000, 0.000000000000000000 ) ) ;
#94 = AXIS2_PLACEMENT_3D ( 'NONE', #197, #21, #332 ) ;
#95 = PLANE ( 'NONE',  #269 ) ;
#96 = CARTESIAN_POINT ( 'NONE',  ( -1.614212418857619014, 0.000000000000000000, 0.000000000000000000 ) ) ;
#97 = AXIS2_PLACEMENT_3D ( 'NONE', #99, #308, #331 ) ;
#98 = DIRECTION ( 'NONE',  ( 0.000000000000000000, 0.000000000000000000, 1.000000000000000000 ) ) ;
#99 = CARTESIAN_POINT ( 'NONE',  ( -3.000000000000000000, 0.000000000000000000, 0.000000000000000000 ) ) ;
#100 = DIRECTION ( 'NONE',  ( 0.000000000000000000, 0.000000000000000000, -1.000000000000000000 ) ) ;
#101 = CYLINDRICAL_SURFACE ( 'NONE', #60, 6.349999999999999645 ) ;
#102 = PLANE ( 'NONE',  #27 ) ;
#103 = LOCAL_TIME ( 17, 7, 4.000000000000000000, #301 ) ;
#104 = ORIENTED_EDGE ( 'NONE', *, *, #256, .T. ) ;
#105 = CIRCLE ( 'NONE', #175, 6.349999999999999645 ) ;
#106 = EDGE_CURVE ( 'NONE', #194, #151, #126, .T. ) ;
#107 = COORDINATED_UNIVERSAL_TIME_OFFSET ( 8, 0, .AHEAD. ) ;
#108 = FACE_BOUND ( 'NONE', #193, .T. ) ;
#109 = APPROVAL_ROLE ( '' ) ;
#110 = ADVANCED_FACE ( 'NONE', ( #246, #222 ), #95, .F. ) ;
#111 = CARTESIAN_POINT ( 'NONE',  ( -2.999999999999999556, 0.000000000000000000, 0.000000000000000000 ) ) ;
#112 = DATE_AND_TIME ( #167, #215 ) ;
#113 = CC_DESIGN_APPROVAL ( #325, ( #25 ) ) ;
#114 = CARTESIAN_POINT ( 'NONE',  ( -1.614212418857619014, 0.000000000000000000, 6.349999999999999645 ) ) ;
#115 = ORIENTED_EDGE ( 'NONE', *, *, #278, .T. ) ;
#116 = APPROVAL_ROLE ( '' ) ;
#117 = DIRECTION ( 'NONE',  ( 0.000000000000000000, 0.000000000000000000, -1.000000000000000000 ) ) ;
#118 = VERTEX_POINT ( 'NONE', #328 ) ;
#119 = AXIS2_PLACEMENT_3D ( 'NONE', #93, #141, #8 ) ;
#120 = AXIS2_PLACEMENT_3D ( 'NONE', #29, #267, #135 ) ;
#121 = ORIENTED_EDGE ( 'NONE', *, *, #78, .F. ) ;
#122 = CARTESIAN_POINT ( 'NONE',  ( 1.500000000000000888, 0.000000000000000000, 0.000000000000000000 ) ) ;
#123 = DIRECTION ( 'NONE',  ( 0.000000000000000000, 0.000000000000000000, -1.000000000000000000 ) ) ;
#124 = DIRECTION ( 'NONE',  ( 0.000000000000000000, 0.000000000000000000, 1.000000000000000000 ) ) ;
#125 = ADVANCED_FACE ( 'NONE', ( #18 ), #251, .T. ) ;
#126 = CIRCLE ( 'NONE', #144, 12.69999999999999929 ) ;
#127 = CARTESIAN_POINT ( 'NONE',  ( -1.614212418857619014, 0.000000000000000000, 0.000000000000000000 ) ) ;
#128 = MANIFOLD_SOLID_BREP ( 'Ðý×', #170 ) ;
#129 = CYLINDRICAL_SURFACE ( 'NONE', #35, 6.349999999999999645 ) ;
#130 = CARTESIAN_POINT ( 'NONE',  ( -2.999999999999999556, 0.000000000000000000, 0.000000000000000000 ) ) ;
#131 = ORIENTED_EDGE ( 'NONE', *, *, #219, .T. ) ;
#132 = AXIS2_PLACEMENT_3D ( 'NONE', #224, #306, #75 ) ;
#133 = EDGE_LOOP ( 'NONE', ( #272, #121 ) ) ;
#134 = VECTOR ( 'NONE', #57, 1000.000000000000000 ) ;
#135 = DIRECTION ( 'NONE',  ( 0.000000000000000000, 0.000000000000000000, 1.000000000000000000 ) ) ;
#136 = SECURITY_CLASSIFICATION_LEVEL ( 'unclassified' ) ;
#137 = CYLINDRICAL_SURFACE ( 'NONE', #119, 6.349999999999999645 ) ;
#138 = CC_DESIGN_SECURITY_CLASSIFICATION ( #25, ( #205 ) ) ;
#139 = VERTEX_POINT ( 'NONE', #330 ) ;
#140 = PRODUCT_DEFINITION_SHAPE ( 'NONE', 'NONE',  #238 ) ;
#141 = DIRECTION ( 'NONE',  ( -1.000000000000000000, -0.000000000000000000, -0.000000000000000000 ) ) ;
#142 = DIRECTION ( 'NONE',  ( 0.000000000000000000, 0.000000000000000000, 1.000000000000000000 ) ) ;
#143 = EDGE_CURVE ( 'NONE', #177, #218, #148, .T. ) ;
#144 = AXIS2_PLACEMENT_3D ( 'NONE', #36, #39, #142 ) ;
#145 = CARTESIAN_POINT ( 'NONE',  ( -1.614212418857619014, 7.776507174585692163E-16, -6.349999999999999645 ) ) ;
#146 = DIRECTION ( 'NONE',  ( 1.000000000000000000, 0.000000000000000000, 0.000000000000000000 ) ) ;
#147 = DIRECTION ( 'NONE',  ( -1.000000000000000000, -0.000000000000000000, -0.000000000000000000 ) ) ;
#148 = LINE ( 'NONE', #145, #198 ) ;
#149 = AXIS2_PLACEMENT_3D ( 'NONE', #122, #223, #98 ) ;
#150 = PLANE ( 'NONE',  #94 ) ;
#151 = VERTEX_POINT ( 'NONE', #201 ) ;
#152 = ORIENTED_EDGE ( 'NONE', *, *, #219, .F. ) ;
#153 = ORIENTED_EDGE ( 'NONE', *, *, #143, .T. ) ;
#154 = CARTESIAN_POINT ( 'NONE',  ( -1.614212418857619014, 0.000000000000000000, 12.69999999999999929 ) ) ;
#155 = ORIENTED_EDGE ( 'NONE', *, *, #143, .F. ) ;
#156 = MECHANICAL_CONTEXT ( 'NONE', #159, 'mechanical' ) ;
#157 = PERSON_AND_ORGANIZATION_ROLE ( 'design_supplier' ) ;
#158 = AXIS2_PLACEMENT_3D ( 'NONE', #130, #226, #312 ) ;
#159 = APPLICATION_CONTEXT ( 'configuration controlled 3d designs of mechanical parts and assemblies' ) ;
#160 = PERSON_AND_ORGANIZATION ( #199, #264 ) ;
#161 = DATE_AND_TIME ( #221, #103 ) ;
#162 = DIRECTION ( 'NONE',  ( 0.000000000000000000, 0.000000000000000000, 1.000000000000000000 ) ) ;
#163 = COORDINATED_UNIVERSAL_TIME_OFFSET ( 8, 0, .AHEAD. ) ;
#164 = EDGE_CURVE ( 'NONE', #139, #218, #299, .T. ) ;
#165 = ORIENTED_EDGE ( 'NONE', *, *, #242, .F. ) ;
#166 = COORDINATED_UNIVERSAL_TIME_OFFSET ( 8, 0, .AHEAD. ) ;
#167 = CALENDAR_DATE ( 2020, 22, 12 ) ;
#168 = CARTESIAN_POINT ( 'NONE',  ( -1.500000000000000444, 0.000000000000000000, 0.000000000000000000 ) ) ;
#169 = CARTESIAN_POINT ( 'NONE',  ( 3.000000000000000000, 12.69999999999999929, 0.000000000000000000 ) ) ;
#170 = CLOSED_SHELL ( 'NONE', ( #125, #171, #210, #252, #3, #241, #321, #49, #110, #180 ) ) ;
#171 = ADVANCED_FACE ( 'NONE', ( #307 ), #77, .F. ) ;
#172 = AXIS2_PLACEMENT_3D ( 'NONE', #316, #209, #88 ) ;
#173 = CARTESIAN_POINT ( 'NONE',  ( 3.000000000000000000, 0.000000000000000000, 12.69999999999999929 ) ) ;
#174 = CARTESIAN_POINT ( 'NONE',  ( -1.500000000000000444, 0.000000000000000000, 0.000000000000000000 ) ) ;
#175 = AXIS2_PLACEMENT_3D ( 'NONE', #72, #274, #270 ) ;
#176 =( LENGTH_UNIT ( ) NAMED_UNIT ( * ) SI_UNIT ( .MILLI., .METRE. ) );
#177 = VERTEX_POINT ( 'NONE', #43 ) ;
#178 = CARTESIAN_POINT ( 'NONE',  ( -1.614212418857619014, 0.000000000000000000, 6.349999999999999645 ) ) ;
#179 = ORIENTED_EDGE ( 'NONE', *, *, #293, .T. ) ;
#180 = ADVANCED_FACE ( 'NONE', ( #20 ), #248, .F. ) ;
#181 = DIRECTION ( 'NONE',  ( -1.000000000000000000, -0.000000000000000000, -0.000000000000000000 ) ) ;
#182 = APPLICATION_PROTOCOL_DEFINITION ( 'international standard', 'config_control_design', 1994, #159 ) ;
#183 = APPLICATION_PROTOCOL_DEFINITION ( 'international standard', 'config_control_design', 1994, #31 ) ;
#184 = APPROVAL_PERSON_ORGANIZATION ( #186, #55, #240 ) ;
#185 = FACE_OUTER_BOUND ( 'NONE', #317, .T. ) ;
#186 = PERSON_AND_ORGANIZATION ( #199, #264 ) ;
#187 = DIRECTION ( 'NONE',  ( 1.000000000000000000, 0.000000000000000000, 0.000000000000000000 ) ) ;
#188 = PERSON_AND_ORGANIZATION_ROLE ( 'creator' ) ;
#189 = EDGE_CURVE ( 'NONE', #177, #314, #232, .T. ) ;
#190 = PRODUCT ( 'Q-AZHWP-12.7-405-M', 'Q-AZHWP-12.7-405-M', '', ( #156 ) ) ;
#191 = CYLINDRICAL_SURFACE ( 'NONE', #28, 12.69999999999999929 ) ;
#192 = AXIS2_PLACEMENT_3D ( 'NONE', #127, #327, #225 ) ;
#193 = EDGE_LOOP ( 'NONE', ( #261, #87 ) ) ;
#194 = VERTEX_POINT ( 'NONE', #173 ) ;
#195 = EDGE_LOOP ( 'NONE', ( #51, #84, #165, #258 ) ) ;
#196 = CARTESIAN_POINT ( 'NONE',  ( -1.500000000000000444, 6.349999999999999645, 0.000000000000000000 ) ) ;
#197 = CARTESIAN_POINT ( 'NONE',  ( 1.500000000000000444, 6.349999999999999645, 0.000000000000000000 ) ) ;
#198 = VECTOR ( 'NONE', #17, 1000.000000000000000 ) ;
#199 = PERSON ( 'UNSPECIFIED', 'UNSPECIFIED', 'UNSPECIFIED', ('UNSPECIFIED'), ('UNSPECIFIED'), ('UNSPECIFIED') ) ;
#200 = CARTESIAN_POINT ( 'NONE',  ( 3.000000000000000000, 0.000000000000000000, 0.000000000000000000 ) ) ;
#201 = CARTESIAN_POINT ( 'NONE',  ( 3.000000000000000000, 1.555301434917138433E-15, -12.69999999999999929 ) ) ;
#202 = EDGE_CURVE ( 'NONE', #207, #37, #53, .T. ) ;
#203 = DIRECTION ( 'NONE',  ( 0.000000000000000000, 0.000000000000000000, 1.000000000000000000 ) ) ;
#204 = VECTOR ( 'NONE', #245, 1000.000000000000000 ) ;
#205 = PRODUCT_DEFINITION_FORMATION_WITH_SPECIFIED_SOURCE ( 'ANY', '', #190, .NOT_KNOWN. ) ;
#206 = FACE_OUTER_BOUND ( 'NONE', #133, .T. ) ;
#207 = VERTEX_POINT ( 'NONE', #279 ) ;
#208 = ORIENTED_EDGE ( 'NONE', *, *, #164, .T. ) ;
#209 = DIRECTION ( 'NONE',  ( 0.000000000000000000, 0.000000000000000000, 1.000000000000000000 ) ) ;
#210 = ADVANCED_FACE ( 'NONE', ( #44 ), #101, .F. ) ;
#211 = CALENDAR_DATE ( 2020, 22, 12 ) ;
#212 = DESIGN_CONTEXT ( 'detailed design', #31, 'design' ) ;
#213 = ORIENTED_EDGE ( 'NONE', *, *, #278, .F. ) ;
#214 = APPROVAL_STATUS ( 'not_yet_approved' ) ;
#215 = LOCAL_TIME ( 17, 7, 4.000000000000000000, #166 ) ;
#216 = ORIENTED_EDGE ( 'NONE', *, *, #202, .F. ) ;
#217 = PERSON_AND_ORGANIZATION_ROLE ( 'classification_officer' ) ;
#218 = VERTEX_POINT ( 'NONE', #257 ) ;
#219 = EDGE_CURVE ( 'NONE', #151, #194, #335, .T. ) ;
#220 = VERTEX_POINT ( 'NONE', #23 ) ;
#221 = CALENDAR_DATE ( 2020, 22, 12 ) ;
#222 = FACE_BOUND ( 'NONE', #302, .T. ) ;
#223 = DIRECTION ( 'NONE',  ( -1.000000000000000000, -0.000000000000000000, -0.000000000000000000 ) ) ;
#224 = CARTESIAN_POINT ( 'NONE',  ( 3.000000000000000888, 0.000000000000000000, 0.000000000000000000 ) ) ;
#225 = DIRECTION ( 'NONE',  ( 0.000000000000000000, 0.000000000000000000, 1.000000000000000000 ) ) ;
#226 = DIRECTION ( 'NONE',  ( -1.000000000000000000, -0.000000000000000000, -0.000000000000000000 ) ) ;
#227 = ORIENTED_EDGE ( 'NONE', *, *, #313, .F. ) ;
#228 = CIRCLE ( 'NONE', #97, 12.69999999999999929 ) ;
#229 = CARTESIAN_POINT ( 'NONE',  ( -1.614212418857619014, 0.000000000000000000, 0.000000000000000000 ) ) ;
#230 = CARTESIAN_POINT ( 'NONE',  ( -3.000000000000000000, 6.349999999999999645, 0.000000000000000000 ) ) ;
#231 = ORIENTED_EDGE ( 'NONE', *, *, #33, .F. ) ;
#232 = CIRCLE ( 'NONE', #132, 6.349999999999999645 ) ;
#233 = CARTESIAN_POINT ( 'NONE',  ( -1.614212418857619014, 1.555301434917138433E-15, -12.69999999999999929 ) ) ;
#234 = ORIENTED_EDGE ( 'NONE', *, *, #106, .F. ) ;
#235 = PERSON_AND_ORGANIZATION ( #199, #264 ) ;
#236 = CARTESIAN_POINT ( 'NONE',  ( 3.000000000000000888, 0.000000000000000000, 6.349999999999999645 ) ) ;
#237 = CC_DESIGN_PERSON_AND_ORGANIZATION_ASSIGNMENT ( #12, #157, ( #205 ) ) ;
#238 = PRODUCT_DEFINITION ( 'UNKNOWN', '', #205, #212 ) ;
#239 = DIRECTION ( 'NONE',  ( -0.000000000000000000, 0.000000000000000000, 1.000000000000000000 ) ) ;
#240 = APPROVAL_ROLE ( '' ) ;
#241 = ADVANCED_FACE ( 'NONE', ( #82 ), #129, .F. ) ;
#242 = EDGE_CURVE ( 'NONE', #2, #290, #228, .T. ) ;
#243 = LINE ( 'NONE', #34, #68 ) ;
#244 = CC_DESIGN_APPROVAL ( #61, ( #238 ) ) ;
#245 = DIRECTION ( 'NONE',  ( -1.000000000000000000, -0.000000000000000000, -0.000000000000000000 ) ) ;
#246 = FACE_OUTER_BOUND ( 'NONE', #334, .T. ) ;
#247 = AXIS2_PLACEMENT_3D ( 'NONE', #174, #277, #100 ) ;
#248 = PLANE ( 'NONE',  #48 ) ;
#249 = DIRECTION ( 'NONE',  ( 0.000000000000000000, 0.000000000000000000, 1.000000000000000000 ) ) ;
#250 = DIRECTION ( 'NONE',  ( 0.000000000000000000, 0.000000000000000000, 1.000000000000000000 ) ) ;
#251 = CYLINDRICAL_SURFACE ( 'NONE', #253, 12.69999999999999929 ) ;
#252 = ADVANCED_FACE ( 'NONE', ( #206 ), #150, .F. ) ;
#253 = AXIS2_PLACEMENT_3D ( 'NONE', #96, #46, #249 ) ;
#254 =( NAMED_UNIT ( * ) SI_UNIT ( $, .STERADIAN. ) SOLID_ANGLE_UNIT ( ) );
#255 = DIRECTION ( 'NONE',  ( -1.000000000000000000, -0.000000000000000000, -0.000000000000000000 ) ) ;
#256 = EDGE_CURVE ( 'NONE', #314, #177, #329, .T. ) ;
#257 = CARTESIAN_POINT ( 'NONE',  ( 1.500000000000000888, 7.776507174585692163E-16, -6.349999999999999645 ) ) ;
#258 = ORIENTED_EDGE ( 'NONE', *, *, #293, .F. ) ;
#259 = LOCAL_TIME ( 17, 7, 4.000000000000000000, #163 ) ;
#260 = ORIENTED_EDGE ( 'NONE', *, *, #202, .T. ) ;
#261 = ORIENTED_EDGE ( 'NONE', *, *, #273, .F. ) ;
#262 = DIRECTION ( 'NONE',  ( 0.000000000000000000, 0.000000000000000000, -1.000000000000000000 ) ) ;
#263 = AXIS2_PLACEMENT_3D ( 'NONE', #168, #187, #117 ) ;
#264 = ORGANIZATION ( 'UNSPECIFIED', 'UNSPECIFIED', '' ) ;
#265 = APPROVAL_STATUS ( 'not_yet_approved' ) ;
#266 = PERSON_AND_ORGANIZATION ( #199, #264 ) ;
#267 = DIRECTION ( 'NONE',  ( -1.000000000000000000, -0.000000000000000000, -0.000000000000000000 ) ) ;
#268 = DIRECTION ( 'NONE',  ( -1.000000000000000000, -0.000000000000000000, -0.000000000000000000 ) ) ;
#269 = AXIS2_PLACEMENT_3D ( 'NONE', #169, #275, #239 ) ;
#270 = DIRECTION ( 'NONE',  ( 0.000000000000000000, 0.000000000000000000, 1.000000000000000000 ) ) ;
#271 = PRODUCT_RELATED_PRODUCT_CATEGORY ( 'detail', '', ( #190 ) ) ;
#272 = ORIENTED_EDGE ( 'NONE', *, *, #164, .F. ) ;
#273 = EDGE_CURVE ( 'NONE', #118, #220, #281, .T. ) ;
#274 = DIRECTION ( 'NONE',  ( -1.000000000000000000, -0.000000000000000000, -0.000000000000000000 ) ) ;
#275 = DIRECTION ( 'NONE',  ( -1.000000000000000000, 0.000000000000000000, -0.000000000000000000 ) ) ;
#276 = CIRCLE ( 'NONE', #120, 12.69999999999999929 ) ;
#277 = DIRECTION ( 'NONE',  ( 1.000000000000000000, 0.000000000000000000, 0.000000000000000000 ) ) ;
#278 = EDGE_CURVE ( 'NONE', #314, #139, #83, .T. ) ;
#279 = CARTESIAN_POINT ( 'NONE',  ( -1.500000000000000444, 7.776507174585692163E-16, -6.349999999999999645 ) ) ;
#280 = CARTESIAN_POINT ( 'NONE',  ( 3.000000000000000888, 0.000000000000000000, 0.000000000000000000 ) ) ;
#281 = CIRCLE ( 'NONE', #158, 6.349999999999999645 ) ;
#282 =( NAMED_UNIT ( * ) PLANE_ANGLE_UNIT ( ) SI_UNIT ( $, .RADIAN. ) );
#283 = ORIENTED_EDGE ( 'NONE', *, *, #189, .F. ) ;
#284 = DIRECTION ( 'NONE',  ( -1.000000000000000000, -0.000000000000000000, -0.000000000000000000 ) ) ;
#285 = ORIENTED_EDGE ( 'NONE', *, *, #273, .T. ) ;
#286 = VECTOR ( 'NONE', #287, 1000.000000000000000 ) ;
#287 = DIRECTION ( 'NONE',  ( -1.000000000000000000, -0.000000000000000000, -0.000000000000000000 ) ) ;
#288 = ORIENTED_EDGE ( 'NONE', *, *, #65, .T. ) ;
#289 = FACE_OUTER_BOUND ( 'NONE', #92, .T. ) ;
#290 = VERTEX_POINT ( 'NONE', #54 ) ;
#291 = CC_DESIGN_PERSON_AND_ORGANIZATION_ASSIGNMENT ( #67, #217, ( #25 ) ) ;
#292 = CIRCLE ( 'NONE', #333, 6.349999999999999645 ) ;
#293 = EDGE_CURVE ( 'NONE', #194, #2, #5, .T. ) ;
#294 = ORIENTED_EDGE ( 'NONE', *, *, #52, .T. ) ;
#295 = APPROVAL_STATUS ( 'not_yet_approved' ) ;
#296 = LINE ( 'NONE', #114, #204 ) ;
#297 = PERSON_AND_ORGANIZATION ( #199, #264 ) ;
#298 = CC_DESIGN_DATE_AND_TIME_ASSIGNMENT ( #112, #324, ( #25 ) ) ;
#299 = CIRCLE ( 'NONE', #149, 6.349999999999999645 ) ;
#300 = CARTESIAN_POINT ( 'NONE',  ( -1.614212418857619014, 0.000000000000000000, 0.000000000000000000 ) ) ;
#301 = COORDINATED_UNIVERSAL_TIME_OFFSET ( 8, 0, .AHEAD. ) ;
#302 = EDGE_LOOP ( 'NONE', ( #104, #24 ) ) ;
#303 = CC_DESIGN_PERSON_AND_ORGANIZATION_ASSIGNMENT ( #235, #7, ( #190 ) ) ;
#304 = ORIENTED_EDGE ( 'NONE', *, *, #313, .T. ) ;
#305 = ADVANCED_BREP_SHAPE_REPRESENTATION ( 'Q-AZHWP-12.7-405-M', ( #128, #172 ), #81 ) ;
#306 = DIRECTION ( 'NONE',  ( -1.000000000000000000, -0.000000000000000000, -0.000000000000000000 ) ) ;
#307 = FACE_OUTER_BOUND ( 'NONE', #309, .T. ) ;
#308 = DIRECTION ( 'NONE',  ( -1.000000000000000000, -0.000000000000000000, -0.000000000000000000 ) ) ;
#309 = EDGE_LOOP ( 'NONE', ( #22, #288, #294, #231 ) ) ;
#310 = APPROVAL_PERSON_ORGANIZATION ( #160, #61, #109 ) ;
#311 = EDGE_CURVE ( 'NONE', #151, #290, #26, .T. ) ;
#312 = DIRECTION ( 'NONE',  ( 0.000000000000000000, 0.000000000000000000, 1.000000000000000000 ) ) ;
#313 = EDGE_CURVE ( 'NONE', #290, #2, #276, .T. ) ;
#314 = VERTEX_POINT ( 'NONE', #236 ) ;
#315 = APPROVAL_DATE_TIME ( #4, #61 ) ;
#316 = CARTESIAN_POINT ( 'NONE',  ( 0.000000000000000000, 0.000000000000000000, 0.000000000000000000 ) ) ;
#317 = EDGE_LOOP ( 'NONE', ( #50, #131, #179, #227 ) ) ;
#318 = DATE_TIME_ROLE ( 'creation_date' ) ;
#319 = ORIENTED_EDGE ( 'NONE', *, *, #65, .F. ) ;
#320 = EDGE_LOOP ( 'NONE', ( #86, #216 ) ) ;
#321 = ADVANCED_FACE ( 'NONE', ( #108, #289 ), #102, .F. ) ;
#322 = VECTOR ( 'NONE', #181, 1000.000000000000000 ) ;
#323 = DIRECTION ( 'NONE',  ( 0.000000000000000000, 0.000000000000000000, 1.000000000000000000 ) ) ;
#324 = DATE_TIME_ROLE ( 'classification_date' ) ;
#325 = APPROVAL ( #214, 'UNSPECIFIED' ) ;
#326 = EDGE_LOOP ( 'NONE', ( #155, #42, #115, #208 ) ) ;
#327 = DIRECTION ( 'NONE',  ( -1.000000000000000000, -0.000000000000000000, -0.000000000000000000 ) ) ;
#328 = CARTESIAN_POINT ( 'NONE',  ( -2.999999999999999556, 0.000000000000000000, 6.349999999999999645 ) ) ;
#329 = CIRCLE ( 'NONE', #89, 6.349999999999999645 ) ;
#330 = CARTESIAN_POINT ( 'NONE',  ( 1.500000000000000888, 0.000000000000000000, 6.349999999999999645 ) ) ;
#331 = DIRECTION ( 'NONE',  ( 0.000000000000000000, 0.000000000000000000, 1.000000000000000000 ) ) ;
#332 = DIRECTION ( 'NONE',  ( -0.000000000000000000, 0.000000000000000000, 1.000000000000000000 ) ) ;
#333 = AXIS2_PLACEMENT_3D ( 'NONE', #111, #268, #323 ) ;
#334 = EDGE_LOOP ( 'NONE', ( #234, #152 ) ) ;
#335 = CIRCLE ( 'NONE', #85, 12.69999999999999929 ) ;
ENDSEC;
END-ISO-10303-21;
